Bookends (1968)

Bookends Theme

Paul Simon & Art Garfunkel

Bookends Theme da Bookends, Paul Simon & Art Garfunkel
Bookends Theme, testo
(strumentale)
Tema dei Fermalibri, traduzione
(strumentale)
Bookends Theme, tablatura e accordi
Capo IV

Questa tab può essere utilizzata anche nella parte cantata

e|-----0--1--|-----0--1--|-----0--1--|-----0--1--|--0--------|
B|--3--------|--3--------|--3--------|--3--------|-----1-----|
G|-----0--2--|-----0--2--|-----0--2--|-----0--2--|--0-----0--|
D|--3--------|--3--------|--3--------|--3--------|-----2-----|
A|-----------|-----------|-----------|-----------|--------3--|
E|-----------|-----------|-----------|-----------|-----------|

e|-----0-----|-----------|-----------------|--0--------|-----------|
B|--1-----1--|--3--1-----|-----1-----3--1--|-----1-----|--1--------|
G|-----0-----|--------2--|-----------------|--0-----0--|-----------|
D|--2-----2--|--3--3-----|--3-----3--------|-----2-----|--2--------|
A|-----------|--------3--|-----------------|--------3--|-----------|
E|-----------|-----------|-----------------|-----------|-----------|

e|-----0--1--|-----0--1--|-----0--1--|-----0--1--|--0--------|
B|--3--------|--3--------|--3--------|--3--------|-----1-----|
G|-----0--2--|-----0--2--|-----0--2--|-----0--2--|--0-----0--|
D|--3--------|--3--------|--3--------|--3--------|-----2-----|
A|-----------|-----------|-----------|-----------|--------3--|
E|-----------|-----------|-----------|-----------|-----------|

e|-----0-----|-----------|-----------------|--0--------|-----------|
B|--1-----1--|--3--1-----|-----1-----3--1--|-----1-----|--------1--|
G|-----0-----|--------2--|-----------------|--0--------|-----0-----|
D|--2-----2--|--3--3-----|--3-----3--------|-----2-----|--2-----2--|
A|-----------|--------3--|-----------------|-----------|-----3-----|
E|-----------|-----------|-----------------|-----------|--3--------|

Time it was and what a time it was it was
A time of innocence, a time of confidences.
Long ago it must be, I have a photograph.
Preserve your memories, they're all that's left you...

Intermezzo:

e|-----0-h1-p0-----|
B|--3-----------3--|
G|-----0-h2-p0-----|
D|--3-----------3--|
A|-----------------|
E|-----------------|

Lascia un commento

Il tuo indirizzo email non sarà pubblicato. I campi obbligatori sono contrassegnati *

Questo sito usa Akismet per ridurre lo spam. Scopri come i tuoi dati vengono elaborati.