Anime Salve (1996)

Ho Visto Nina Volare

Fabrizio De Andrè

Ho Visto Nina Volare da Anime Salve, Fabrizio De Andrè
Ho Visto Nina Volare, testo
Mastica e sputa
da una parte il miele
mastica e sputa
dall'altra la cera

Mastica e sputa
prima che venga neve
luce luce lontana
più bassa delle stelle

Quale sarà la mano
che ti accende e ti spegne
ho visto Nina volare
tra le corde dell'altalena

Un giorno la prenderò
come fa il vento alla schiena
e se lo sa mio padre
dovrò cambiar paese
se mio padre lo sa
mi imbarcherò sul mare

Mastica e sputa
da una parte il miele
mastica e sputa
dall'altra la cera

Mastica e sputa
prima che faccia neve
stanotte è venuta l'ombra
l'ombra che mi fa il verso

Le ho mostrato il coltello
e la mia maschera di gelso
e se lo sa mio padre
mi metterò in cammino
se mio padre lo sa
mi imbarcherò lontano

Mastica e sputa
da una parte il miele
mastica e sputa
dall'altra la cera

Mastica e sputa
prima che metta neve
ho visto Nina volare
tra le corde dell'altalena

Un giorno la prenderò
come fa il vento alla schiena
luce luce lontana
che si accende e si spegne

Quale sarà la mano
che illumina le stelle
mastica e sputa
prima che venga neve
Ho Visto Nina Volare, note e significato

Nell'immediato dopoguerra, la famiglia De Andrè era solita passare i finesettimana e le vacanze a Revignano, nell'astigiano. Qui il piccolo De Andrè conobbe per la prima volta quella natura libera e incontaminata che avrebbe poi ritrovato nella sua tenuta in Sardegna. In questo ambiente rurale conobbe Nina Manfieri, una sua amica d'infanzia e, probabilmente, primo "amore" del cantautore genovese. Per saperne di più, consiglio la lettura di questo breve articolo de La Stampa.

Ho Visto Nina Volare, tablatura e accordi
Intro:
 legato
E|---3-3-3-3----|-1--------3-1-|--------------|--------1-----|
B|------------1-|--------------|--4-4-4-4-----|-3--------4-3-|
G|-3------------|--------------|-0----------0-|-1------------|
D|--------------|--------------|--------------|--------------|
A|--------------|--------------|--------------|--------------|
E|--------------|--------------|--------------|--------------|

                                 Cm        Gm7  Cm
E|--------------|--------------|--------------|--------------|
B|-1-1-1-1------|--------------|--------------|--------------|
G|--------------|-3-3-3-3----1-|-0-0-0-0----3-|-0------------|
D|--------------|-0-0-0-0------|-1-1-1-1----3-|-1------------|
A|--------------|--------------|-3-3-3-3----5-|-3------------|
E|--------------|--------------|--------------|--------------|

  Cm
Mastica e sputa da una parte il miele
  G7
mastica e sputa dall'altra la cera
  Cm
mastica e sputa
  G7                Cm  Fm Cm
prima che venga neve

  Cm
Luce luce lontana più bassa delle stelle
  G7
sarà la stessa mano
                       Cm
che ti accende e ti spegne

   Cm
Ho visto Nina volare tra le corde dell'altalena
   G7
un giorno la prenderò come fa il vento alla schiena

  Cm
E se lo sa mio padre dovrò cambiar paese
  G7
se mio padre lo sa mi imbarcherò sul mare

  Cm
Mastica e sputa da una parte il miele
  G7
mastica e sputa dall'altra la cera
  Cm
mastica e sputa
  G7                 Cm  Fm Cm
prima che faccia neve

 legato
E|---3-3-3-3----|-1--------3-1-|--------------|--------1-----|
B|------------1-|--------------|--4-4-4-4-----|-3--------4-3-|
G|-3------------|--------------|-0----------0-|-1------------|
D|--------------|--------------|--------------|--------------|
A|--------------|--------------|--------------|--------------|
E|--------------|--------------|--------------|--------------|

                                 Cm        Gm7  Cm
E|--------------|--------------|--------------|--------------|
B|-1-1-1-1------|--------------|--------------|--------------|
G|--------------|-3-3-3-3----1-|-0-0-0-0----3-|-0------------|
D|--------------|-0-0-0-0------|-1-1-1-1----3-|-1------------|
A|--------------|--------------|-3-3-3-3----5-|-3------------|
E|--------------|--------------|--------------|--------------|

   Cm
Stanotte è venuta l'ombra l'ombra che mi fa il verso
  G7
le ho mostrato il coltello e la mia maschera di gelso

  Cm
E se lo sa mio padre mi metterò in cammino
  G7
se mio padre lo sa mi imbarcherò lontano

  Cm
Mastica e sputa da una parte la cera
  G7
mastica e sputa dall'altra parte il miele
  Cm
mastica e sputa
  G7                Cm
prima che metta neve

   Cm
Ho visto Nina volare tra le corde dell'altalena
   G7
un giorno la prenderò come fa il vento alla schiena

  Cm
Luce luce lontana che si accende e si spegne
  G7
quale sarà la mano che illumina le stelle

 legato
E|---3-3-3-3----|-1--------3-1-|--------------|--------1-----|
B|------------1-|--------------|--4-4-4-4-----|-3--------4-3-|
G|-3------------|--------------|-0----------0-|-1------------|
D|--------------|--------------|--------------|--------------|
A|--------------|--------------|--------------|--------------|
E|--------------|--------------|--------------|--------------|

                                 Cm        Gm7  Cm
E|--------------|--------------|--------------|--------------|
B|-1-1-1-1------|--------------|--------------|--------------|
G|--------------|-3-3-3-3----1-|-0-0-0-0----3-|-0------------|
D|--------------|-0-0-0-0------|-1-1-1-1----3-|-1------------|
A|--------------|--------------|-3-3-3-3----5-|-3------------|
E|--------------|--------------|--------------|--------------|

  Cm
Mastica e sputa
  G7                Cm
prima che venga neve.

Una risposta a “Ho Visto Nina Volare”

Lascia un commento

Il tuo indirizzo email non sarà pubblicato. I campi obbligatori sono contrassegnati *

Questo sito usa Akismet per ridurre lo spam. Scopri come i tuoi dati vengono elaborati.