Volume III (1968)

La Ballata dell’Eroe

Fabrizio De Andrè

La Ballata dell’Eroe da Volume III, Fabrizio De Andrè
La Ballata dell’Eroe, testo
Era partito per fare la guerra
per dare il suo aiuto alla sua terra
gli avevano dato le mostrine e le stelle
e il consiglio di vender cara la pelle

E quando gli dissero di andare avanti
troppo lontano si spinsero a cercare la verità
ora che è morto la patria si gloria
d'un altro eroe alla memoria.

Ma lei che lo amava aspettava il ritorno
d'un soldato vivo, d'un eroe morto che ne farà
se accanto nel letto le è rimasta la gloria
d'una medaglia alla memoria.
La Ballata dell’Eroe, note e significato

"La ballata dell'eroe" venne cantata nel 1962 da Luigi Tenco, ottenendo un discreto successo.

La Ballata dell’Eroe, tablatura e accordi

Grazie ad Alberto Fornasier

 LA-       RE-       SOL7      DO        RE-       LA-       FA        MI
|-----0---|-----1---|-----1---|-----0---|-----1---|-----0---|-----1---|-----0---|
|---1-----|---3-----|---0-----|---1-----|---3-----|---1-----|---1-----|---0-----|
|-------2-|-------2-|-------0-|-------0-|-------2-|-------2-|-------2-|-------1-|
|---------|-0-------|---------|---------|-0-------|---------|---------|---------|
|-0-------|---------|---------|-3-------|---------|-0-------|---------|---------|
|---------|---------|-3-------|---------|---------|---------|-1-------|-0-------|
    Era partito        per ...guerra       per ...aiuto         alla  terra

  LA-       RE-       SOL7      DO        RE-       LA-       MI        LA-
|-----0---|-----1---|-----1---|-----0---|-----1---|-----0---|-----0---|-----0---|
|---1-----|---3-----|---0-----|---1-----|---3-----|---1-----|---0-----|---1-----|
|-------2-|-------2-|-------0-|-------0-|-------2-|-------2-|-------1-|-------2-|
|---------|-0-------|---------|---------|-0-------|---------|---------|---------|
|-0-------|---------|---------|-3-------|---------|-0-------|---------|-0-------|
|---------|---------|-3-------|---------|---------|---------|-0-------|---------|
 gliavev...dato        le ... stelle        e il...vendere     cara la pelle

(*)
  SOL7      DO        SOL7      DO        RE-       LA-       RE-       LA-
|-----1---|-----0---|-----1---|-----0---|-----1---|-----0---|-----1---|-----0---|
|---0-----|---1-----|---0-----|---1-----|---3-----|---1-----|---3-----|---1-----|
|-------0-|-------0-|-------0-|-------0-|-------2-|-------2-|-------2-|-------2-|
|---------|---------|---------|---------|-0-------|---------|-0-------|---------|
|---------|-3-------|---------|-3-------|---------|-0-------|---------|-0-------|
|-3-------|---------|-3-------|---------|---------|---------|---------|---------|
    E ...  dissero      di ...avanti        trop ..tano         si..cercare

  FA        MI
|-----1---|-----0---|---------|
|---1-----|---0-----|---------|
|-------2-|-------1-|---------|
|---------|---------|-2-0-----|
|---------|---------|-----3-2-|
|-1-------|-0-------|---------|
   la  verità

  LA-       RE-       SOL7      DO        RE-       LA-       MI        LA-
|-----0---|-----1---|-----1---|-----0---|-----1---|-----0---|-----0---|-----0---|
|---1-----|---3-----|---0-----|---1-----|---3-----|---1-----|---0-----|---1-----|
|-------2-|-------2-|-------0-|-------0-|-------2-|-------2-|-------1-|-------2-|
|---------|-0-------|---------|---------|-0-------|---------|---------|---------|
|-0-------|---------|---------|-3-------|---------|-0-------|---------|-0-------|
|---------|---------|-3-------|---------|---------|---------|-0-------|---------|
    ora ...morto        la ...gloria        di ...eroe          alla memoria

Riprende da (*)

Ma lei che lo amava aspettava il ritorno
d'un soldato vivo, d'un eroe morto che ne farà
se accanto nel letto le è rimasta la gloria
d'una medaglia alla memoria.

Lascia un commento

Il tuo indirizzo email non sarà pubblicato. I campi obbligatori sono contrassegnati *

Questo sito usa Akismet per ridurre lo spam. Scopri come i tuoi dati vengono elaborati.