Volume I (1967)

La Canzone di Barbara

Fabrizio De Andrè

La Canzone di Barbara da Volume I, Fabrizio De Andrè
La Canzone di Barbara, testo
Chi cerca una bocca infedele
che sappia di fragola e miele
in lei la troverà
Barbara
in lei la bacerà
Barbara.

Lei sa che ogni letto di sposa
è fatto di ortiche e mimosa
per questo ad un'alta età
Barbara
l'amore vero rimanderà
Barbara.

E intanto lei gioca all'amore
scherzando con gli occhi ed il cuore
di chi forse la odierà
Barbara
ma poi la perdonerà
Barbara.

E il vento di sera la invita
a sfogliare la sua margherita
per ogni amore che se ne va
lei lo sa
un altro petalo fiorirà
per Barbara.
La Canzone di Barbara, tablatura e accordi
Trascritta da Enrico

Intro

Q.=65
        Em            Bm            Em    A       D   A D       Em    F#7
 6/8
|---2-|-3-2-0-0-2-3-|-2---------2-|-3-2-0---5-3-|-2-------2-5-|-3-2-0-----0-|
|-----|-------------|---3-2-2-3---|-------2-----|---3-2-3-----|-------2-3---|
|-----|-------------|-------------|-------------|-------------|-------------|
|-----|-------------|-------------|-------------|-0-----------|-------------|
|-----|-------------|-2-----2-----|-------0-----|-------------|-------------|
|-----|-0-----0-----|-------------|-0-----------|-------------|-0-----2-----|

  Bm            Bm  F#7   Bm
|-2-----------|-2---2---|-2---||
|---3-2-0-0-2-|-3---2---|-3---||
|-------------|-4---3---|-4---||
|-------------|-4---4---|-4---||
|-2-----2-----|-2---4---|-2---||
|-------------|-2---2---|-2---||

Un possibile arpeggio per la canzone può essere il seguente.
Sono indicate solo le corde da toccare, il basso cambia in base all'accordo.

||-------0--------0-||
||----0--------0----||
||-0--------0-------||
||------------------||
||-0--------0-------||
||------------------||

STROFE:

    Bm                 F#7
Chi cerca una bocca infedele
                          Bm
che sappia di fragola e miele
   B7        Em
in lei la troverà
G    A    D
Bar -ba -ra
   B7        Em
in lei la bacerà
Bm  F#  Bm
Bar-ba -ra.

    Bm                 F#7
Lei sa che ogni letto di sposa
                          Bm
è fatto di ortica e mimosa
   B7        Em
per questo ad un'altra età
G    A    D
Barbara
   B7        Em
l'amore vero rimanderà
Bm  F#  Bm
Barbara.

----------------------------
Cambia tonalità (Re minore)
----------------------------

    Dm                A7
E intanto lei gioca all'amore
                                Dm
scherzando con gli occhi e col cuore
   D7             Gm
di chi forse la odierà
Bb  C   F
Bar-ba-ra
    D7          Gm
ma poi la perdonerà
Dm   A    Dm
Bar -ba -ra.

----------------------------
Torna in Si minore
----------------------------

    Bm                 F#7
E il vento la sera la invita
                          Bm
a sfogliare la sua margherita
   B7        Em
per ogni amore che se ne va
G    A    D
lei lo sa
   B7        Em
un altro petalo fiorirà
Bm  F#  Bm
per Barbara.

Outro
                                    Bm  F#7   Bm
|---2-|-3-2-0-0-2-|-3-2---------|---2---6---|-7----|
|-----|-----------|-----3-2-0-0-|-2-3---5---|-7----|
|-----|-----------|-------------|---4---6---|-7----|
|-----|-----------|-------------|---4---4---|-9----|
|-----|-----------|---2-----2---|---2---4---|-9----|
|-----|-0-----2---|-------------|---2---4---|-7----|

Lascia un commento

Il tuo indirizzo email non sarà pubblicato. I campi obbligatori sono contrassegnati *

Questo sito usa Akismet per ridurre lo spam. Scopri come i tuoi dati vengono elaborati.