Blood on the Tracks (1975)

Buckets of Rain

Bob Dylan

Buckets of Rain da Blood on the Tracks, Bob Dylan
Buckets of Rain, testo
uckets of rain
Buckets of tears
Got all them buckets comin’ out of my ears
Buckets of moonbeams in my hand
I got all the love, honey baby
You can stand

I been meek
And hard like an oak
I seen pretty people disappear like smoke
Friends will arrive, friends will disappear
If you want me, honey baby
I’ll be here

Like your smile
And your fingertips
Like the way that you move your lips
I like the cool way you look at me
Everything about you is bringing me
Misery

Little red wagon
Little red bike
I ain’t no monkey but I know what I like
I like the way you love me strong and slow
I’m takin’ you with me, honey baby
When I go

Life is sad
Life is a bust
All ya can do is do what you must
You do what you must do and ya do it well
I’ll do it for you, honey baby
Can’t you tell?
Secchielli di Pioggia, traduzione
Secchielli di pioggia
secchielli di lacrime
tutti questi secchielli che mi escono dalle orecchie
Secchielli di raggi lunari nella mia mano
Ho avuto tutto l'amore, dolcezza,
che riesco a sopportare

Sono stato umile
e duro come una quercia
ho visto belle persone sparire come fumo
Amici arrivano, amici se ne vanno
se mi vuoi, dolcezza,
io sarò là.

Mi piace il tuo sorriso
e mi piace la punta delle tue dita
Mi piace il modo in cui muovi la bocca
e il modo sicuro con cui mi guardi
tutto ciò che hai mi fa sentire
Misero

Piccola macchina rossa
piccola bici rossa
Non ho una scimmia ma so quel che mi piace
mi piace il modo in cui mi ami, forte e tenero
ti porterò con me, dolcezza
quando me ne andrò

La vita è triste
la vita è una fregatura
tutto quello che puoi fare è fare ciò che devi
fai quello che devi e fallo bene
lo farò per te, dolcezza
non riesci a capirlo?
Buckets of Rain, tablatura e accordi
Il Riff di chitarra è il seguente. L'originale è in accordatura aperta di D (D A d f# a d) ma riporto qui la versione in accordatura standard.

E|----2---2/4---------------0-------|
B|----------------------0-----------|
G|--2-----2/4---------2-------------| X2
D|------2---------2-------2-------2-|
A|----------------------------------|
E|--0---------0-------0-------0-----|

E|--------0---------2p0---0h2p0---0-|--------------0-----------------|
B|--2-------------------2-------2---|--------------------------------|
G|----2-----------------------------|--------2/4---------------------|
D|------2-------2-------2-------2---|----2-------2-------2-------2---|
A|--0-------0-------0-------0-------|--------------------------------|
E|----------------------------------|0-------0-------0-------0-------|

E|----7-------5-------0-----------0-|--------------0-----------------|
B|----------------------------0-----|--------------------------------|
G|--8-------6-------4-------2-------|--------2/4---------------------|
D|----------------------2-------2---|----2-------2-------2-------2---|
A|------7-------7-------------------|--------------------------------|
E|--7-------5-------4-------2-------|0-------0-------0-------0-------|

E|----10--10/12---------------0---------|
B|------------------------0-------------|
G|--11----11/13---------2---------------| X2
D|------------------2-------2-------2---|
A|--------------------------------------|
E|--0-----------0-------0-------0-------|



L'introduzione è eseguita su questi accordi:

| E | E | E | E |
| A | A | E | E |
| B A | G#m F#m | E | E |

  E
Buckets of rain
  E
Buckets of tears
  E
Got all them buckets comin' out of my ears
  A                          E
Buckets of moonbeams in my hand
  B               A     G#m        F#m   E
You got all the love, honey baby I can stand

  E
I been meek
    E
And hard like an oak
     E
I've seen pretty people disappear like smoke
  A                                      E
Friends will arrive, friends will disappear
   B        A   G#m        F#m     E
If you want me, honey baby I'll be here

  E
I like your smile
         E
And your fingertips
  E
I like the way that you move your lips
  A                             E
I like the cool way you look at me
  B           A           G#m         F#m E
Everything about you is bringing me misery

  E
Little red wagon
  E
Little red bike
  E
I ain't no monkey but I know what I like
  A                                   E
I like the way you love me strong and slow
    B          A        G#m        F#m    E
I'm takin' you with me, honey baby when I go

  E
Life is sad
  E
Life is a bust
  E
All ya can do is do what you must
    A                                E
You do what you must do and ya do it well
     B         A    G#m         F#m       E
I'll do it for you, honey baby, can't you tell?

Lascia un commento

Il tuo indirizzo email non sarà pubblicato. I campi obbligatori sono contrassegnati *

Questo sito usa Akismet per ridurre lo spam. Scopri come i tuoi dati vengono elaborati.